0
SECTION
2
HEADER
9
$INSUNITS
70
4
9
$ACADVER
1
AC1014
9
$HANDSEED
5
FFFF
0
ENDSEC
0
SECTION
2
TABLES
0
TABLE
2
VPORT
5
8
100
AcDbSymbolTable
0
ENDTAB
0
TABLE
2
LTYPE
5
5
100
AcDbSymbolTable
0
LTYPE
5
14
100
AcDbSymbolTableRecord
100
AcDbLinetypeTableRecord
2
BYBLOCK
70
0
0
LTYPE
5
15
100
AcDbSymbolTableRecord
100
AcDbLinetypeTableRecord
2
BYLAYER
70
0
0
ENDTAB
0
TABLE
2
LAYER
5
2
100
AcDbSymbolTable
70
2
0
LAYER
5
50
100
AcDbSymbolTableRecord
100
AcDbLayerTableRecord
2
0
70
0
6
CONTINUOUS
0
ENDTAB
0
TABLE
2
STYLE
5
3
100
AcDbSymbolTable
70
1
0
STYLE
5
11
100
AcDbSymbolTableRecord
100
AcDbTextStyleTableRecord
2
STANDARD
70
0
0
ENDTAB
0
TABLE
2
VIEW
5
6
100
AcDbSymbolTable
70
0
0
ENDTAB
0
TABLE
2
UCS
5
7
100
AcDbSymbolTable
70
0
0
ENDTAB
0
TABLE
2
APPID
5
9
100
AcDbSymbolTable
70
2
0
APPID
5
12
100
AcDbSymbolTableRecord
100
AcDbRegAppTableRecord
2
ACAD
70
0
0
ENDTAB
0
TABLE
2
DIMSTYLE
5
A
100
AcDbSymbolTable
70
1
0
ENDTAB
0
TABLE
2
BLOCK_RECORD
5
1
100
AcDbSymbolTable
70
1
0
BLOCK_RECORD
5
1F
100
AcDbSymbolTableRecord
100
AcDbBlockTableRecord
2
*MODEL_SPACE
0
BLOCK_RECORD
5
1B
100
AcDbSymbolTableRecord
100
AcDbBlockTableRecord
2
*PAPER_SPACE
0
ENDTAB
0
ENDSEC
0
SECTION
2
BLOCKS
0
BLOCK
5
20
100
AcDbEntity
100
AcDbBlockBegin
2
*MODEL_SPACE
0
ENDBLK
5
21
100
AcDbEntity
100
AcDbBlockEnd
0
BLOCK
5
1C
100
AcDbEntity
100
AcDbBlockBegin
2
*PAPER_SPACE
0
ENDBLK
5
1D
100
AcDbEntity
100
AcDbBlockEnd
0
ENDSEC
0
SECTION
2
ENTITIES
0
CIRCLE
5
100
100
AcDbEntity
8
0
100
AcDbCircle
10
312.30872273602142
20
-138.33965178410065
30
0
40
2.500000000000016
210
-9.8607613152626476e-32
220
9.031806769355701e-47
230
1
0
CIRCLE
5
101
100
AcDbEntity
8
0
100
AcDbCircle
10
312.35368728637826
20
-197.89926528930914
30
0
40
3.5000000000000369
210
-9.8607613152626498e-32
220
1.0126571129356416e-46
230
1
0
CIRCLE
5
102
100
AcDbEntity
8
0
100
AcDbCircle
10
312.35368728637764
20
-420.56561711463951
30
0
40
2.9999999999999902
210
-9.8607613152626432e-32
220
3.9443045261050599e-31
230
1
0
LWPOLYLINE
5
103
100
AcDbEntity
8
0
100
AcDbPolyline
90
18
70
1
43
0.0
10
341.45037497249268
20
-401.61743354347698
10
413.41405780111859
20
-217.99828223205762
42
0.093652351604737186
10
414.79308357520387
20
-210.70038398134042
10
414.79308357520387
20
-172.32450917642228
42
0.11480299751657774
10
412.73883282437026
20
-163.49557470582812
10
386.28451672278152
20
-109.72436087493072
42
0.2624367813642498
10
370.07635844461532
20
-98.628918878054151
10
314.96007374287831
20
-93.822266142437542
42
0.043522056566519078
10
309.7473008298773
20
-93.822266142437542
10
254.63101612814017
20
-98.628918878054165
42
0.26243678136424825
10
238.42285784997409
20
-109.72436087493067
10
211.96854174838518
20
-163.49557470582801
42
0.11480299751657774
10
209.91429099755155
20
-172.32450917642217
10
209.91429099755146
20
-210.70038398134031
42
0.093652351604738407
10
211.29331677163677
20
-217.99828223205762
10
283.25699960026151
20
-401.61743354347698
42
-0.054407921817830246
10
289.45722058827693
20
-424.48129695423938
42
0.84350120971509746
10
335.25015398447698
20
-424.48129695423978
42
-0.054407921817846504
0
LWPOLYLINE
5
104
100
AcDbEntity
8
0
100
AcDbPolyline
90
7
70
1
43
0.0
10
270.63859470889338
20
-316.44740020556264
10
294.35137868437084
20
-298.64854996028168
42
-0.61816694957488161
10
306.35368728637764
20
-304.64681781461263
10
306.35368728637752
20
-403.84052632688611
42
-0.81486253039560141
10
297.7206411704932
20
-405.62039424445027
42
-0.0082810122377558019
10
297.59890188061877
20
-405.32429773631736
10
267.33117648971694
20
-328.09401622124034
42
-0.33706685096047795
0
LWPOLYLINE
5
105
100
AcDbEntity
8
0
100
AcDbPolyline
90
12
70
1
43
0.0
10
283.97789551645116
20
-173.92397714859703
42
0.29821662669861576
10
294.9234403670074
20
-173.48233484483873
42
-0.033624861287792678
10
298.35368728637769
20
-171.36626696645979
42
0.27817927792603325
10
306.35368728637962
20
-158.09976780503598
10
306.35368728637775
20
-122.52883960791414
42
0.43992780260905207
10
290.05049405812753
20
-107.58555725731097
10
263.25316311990508
20
-109.9225337926211
42
0.24550391525407481
10
257.39923627994057
20
-113.66212933740179
42
-0.2045816914014254
10
250.13772564819283
20
-119.14083043917998
42
0.22120954148382166
10
245.21102010799783
20
-123.110046616338
10
238.78264338672562
20
-136.17640667409549
42
0.39036578747522349
10
242.62005546720846
20
-149.17149302797273
0
LWPOLYLINE
5
106
100
AcDbEntity
8
0
100
AcDbPolyline
90
9
70
1
43
0.0
10
293.28083893575433
20
-221.05582927868511
42
0.27817916996531117
10
277.95453369713954
20
-218.79657980013741
10
242.84805366123311
20
-233.48578533887479
42
0.40756128420084803
10
236.3073628856535
20
-248.93452116934768
10
254.88292406588045
20
-296.3314035156917
42
0.50113813199985957
10
270.33210586918938
20
-300.57656062789556
10
302.49237273453406
20
-275.567731757481
42
0.23146687197819471
10
306.35368728637764
20
-267.67364910218834
10
306.35368728637843
20
-227.29314220270669
42
-0.12251676669135787
0
LWPOLYLINE
5
107
100
AcDbEntity
8
0
100
AcDbPolyline
90
9
70
1
43
0.0
10
388.40001168710171
20
-248.93452116934768
42
0.40756128420084997
10
381.85932091152222
20
-233.48578533887462
10
346.75284087561602
20
-218.79657980013732
42
0.27817916996531317
10
331.42653563700355
20
-221.05582927868826
42
-0.12251676669135934
10
318.35368728637769
20
-227.29314220271016
10
318.35368728637764
20
-267.67364910218839
42
0.23146687197819563
10
322.21500183822121
20
-275.567731757481
10
354.37526870356578
20
-300.57656062789556
42
0.5011381319998629
10
369.82445050687477
20
-296.33140351569176
0
LWPOLYLINE
5
108
100
AcDbEntity
8
0
100
AcDbPolyline
90
7
70
1
43
0.0
10
330.35599588838431
20
-298.64854996028168
42
0.61816694957488649
10
318.35368728637764
20
-304.64681781461258
10
318.35368728637712
20
-403.84052632688611
42
0.81486253039560641
10
326.98673340226173
20
-405.62039424445015
42
0.0082810122381304606
10
327.10847269213616
20
-405.32429773631719
10
357.37619808303805
20
-328.09401622124034
42
0.3370668509604835
10
354.06877986386166
20
-316.44740020556281
0
LWPOLYLINE
5
109
100
AcDbEntity
8
0
100
AcDbPolyline
90
12
70
1
43
0.0
10
382.08731910554707
20
-149.17149302797276
10
340.72947905630417
20
-173.923977148597
42
-0.29821662669862437
10
329.78393420574787
20
-173.48233484483873
42
0.03362486128779326
10
326.35368728637849
20
-171.36626696645811
42
-0.2781792779260247
10
318.35368728637775
20
-158.09976780503601
10
318.35368728637775
20
-122.52883960791408
42
-0.43992780260904701
10
334.65688051462803
20
-107.58555725731101
10
361.45421145285047
20
-109.92253379262112
42
-0.24550391525406937
10
367.3081382928151
20
-113.66212933740179
42
0.20458169140142576
10
374.56964892456278
20
-119.14083043918001
42
-0.22120954148382305
10
379.4963544647577
20
-123.11004661633801
10
385.92473118602993
20
-136.17640667409543
42
-0.39036578747522382
0
LWPOLYLINE
5
110
100
AcDbEntity
8
0
100
AcDbPolyline
90
12
70
1
43
0.0
10
342.23432397517706
20
-195.22577486067675
42
0.27817926327589065
10
351.38475495719695
20
-207.72655848394487
10
385.73588801544139
20
-222.09971276956304
42
0.42089653450027881
10
401.5403774016329
20
-215.40842654140417
10
402.24147326556977
20
-213.61954328162744
42
0.093652351604739947
10
402.79308357520387
20
-210.70038398134034
10
402.79308357520387
20
-172.32450917642228
42
0.11480299751657742
10
401.97138327487039
20
-168.79293538818456
10
400.09877149577216
20
-164.98665258694049
42
0.43847037809511935
10
385.99043432708862
20
-160.82050070365744
10
346.8920341092246
20
-184.22072009089328
42
0.29821662669861426
10
342.10904431158508
20
-194.07582072943222
42
-0.0096405474506172043
0
LWPOLYLINE
5
111
100
AcDbEntity
8
0
100
AcDbPolyline
90
12
70
1
43
0.0
10
273.32261961555827
20
-207.72655848394442
42
0.27817926327589892
10
282.47305059757429
20
-195.22577486067621
42
-0.009640547450614316
10
282.59833026116621
20
-194.07582072943185
42
0.2982166266986232
10
277.81534046353079
20
-184.22072009089328
10
238.71694024566688
20
-160.82050070365742
42
0.43847037809511935
10
224.60860307698334
20
-164.98665258694047
10
222.73599129788505
20
-168.79293538818447
42
0.11480299751657959
10
221.91429099755155
20
-172.32450917642228
10
221.91429099755146
20
-210.70038398134034
42
0.093652351604739253
10
222.46590130718567
20
-213.61954328162741
10
223.16699717112249
20
-215.40842654140408
42
0.42089653450027986
10
238.97148655731388
20
-222.09971276956298
0
CIRCLE
5
112
100
AcDbEntity
8
0
100
AcDbCircle
10
375.65416622741873
20
-110.30251488490168
30
0
40
3.0000000000000142
210
0
220
0
230
1
0
CIRCLE
5
113
100
AcDbEntity
8
0
100
AcDbCircle
10
249.05320834533811
20
-110.30251488490164
30
0
40
3.0000000000000071
210
0
220
0
230
1
0
CIRCLE
5
114
100
AcDbEntity
8
0
100
AcDbCircle
10
227.35368601977291
20
-230.89926756901559
30
0
40
3.0000000000000071
210
0
220
0
230
1
0
CIRCLE
5
115
100
AcDbEntity
8
0
100
AcDbCircle
10
324.85368728637815
20
-197.89926528930931
30
0
40
1.500000000000006
210
0
220
0
230
1
0
CIRCLE
5
116
100
AcDbEntity
8
0
100
AcDbCircle
10
312.3536872863782
20
-210.39926528930951
30
0
40
1.4999999999999858
210
0
220
0
230
1
0
CIRCLE
5
117
100
AcDbEntity
8
0
100
AcDbCircle
10
299.8536872863782
20
-197.89926528930945
30
0
40
1.4999999999999858
210
0
220
0
230
1
0
CIRCLE
5
118
100
AcDbEntity
8
0
100
AcDbCircle
10
312.3536872863782
20
-185.39926528930926
30
0
40
1.4999999999999858
210
0
220
0
230
1
0
CIRCLE
5
119
100
AcDbEntity
8
0
100
AcDbCircle
10
312.43567789461747
20
-330.12784935836714
30
0
40
1.9999999999999916
210
0
220
0
230
1
0
CIRCLE
5
120
100
AcDbEntity
8
0
100
AcDbCircle
10
397.3536885529773
20
-230.8992675691872
30
0
40
3.0000000000000071
210
0
220
0
230
1
0
ENDSEC
0
SECTION
2
OBJECTS
0
DICTIONARY
5
C
100
AcDbDictionary
3
ACAD_GROUP
350
D
3
ACAD_MLINESTYLE
350
17
0
DICTIONARY
5
D
100
AcDbDictionary
0
DICTIONARY
5
1A
330
C
100
AcDbDictionary
0
DICTIONARY
5
17
100
AcDbDictionary
0
ENDSEC
0
EOF
